Канадское достояние (форум Nickelback)

Информация о пользователе

Привет, Гость! Войдите или зарегистрируйтесь.



Аккорды Nickelback

Сообщений 141 страница 160 из 165

141

Ну если напрячься, то можно вытянуть вокал Чада в Аnimаl и Тhis аftеrnооn.Martiness

0

142

Morrikone написал(а):

Ну если напрячься, то можно вытянуть вокал Чада в Аnimаl и Тhis аftеrnооn.

Это ж как надо напрячься

+1

143

Ребят, помогите мне справиться с песней HERO))
В табах я ноль, поэтому только по аккордам играю. никак с боем определиться не могу.Вроде и тот, но вроде и не тот. скажите наверняка пожалуйста)))

0

144

Morrikone написал(а):

Ну если напрячься, то можно вытянуть вокал Чада в Аnimаl и Тhis аftеrnооn

Ну эт не для меня) да и если и смогу, то будет казаться, что режут на части.. так незя...Это я про This Afternoon а Animals ваще не трогаю)

SvetlanaFan написал(а):

Ребят, помогите мне справиться с песней HERO))
В табах я ноль, поэтому только по аккордам играю. никак с боем определиться не могу.Вроде и тот, но вроде и не тот. скажите наверняка пожалуйста)))

Ну как тебе сказать) а, вот... http://www.youtube.com/watch?v=-iorBe2y … ure=search   Если же не услышишь, хотя это просто невозможно, то Раян вначале отбивает ритм, вот такой и бой

Отредактировано Martiness (23-08-2010 14:34:41)

+1

145

Martiness
ну если голос не слащавый и слух есть, то песни не составят особой сложности. Аnimаls вообще на квинтах играют, так что только вокал сложноват. И скорость пения тоже!;)

0

146

Martiness написал(а):

Ну как тебе сказать) а, вот... http://www.youtube.com/watch?v=-iorBe2y … ure=search   Если же не услышишь, хотя это просто невозможно, то Раян вначале отбивает ритм, вот такой и бой

Спасибо, я так и играла просто видно путалась))теперь небольшая загвоздка с перебором. там шестизвучное арпеджио,да? или что-то другое??

+1

147

Morrikone написал(а):

ну если голос не слащавый и слух есть, то песни не составят особой сложности. Аnimаls вообще на квинтах играют, так что только вокал сложноват. И скорость пения тоже!

Так я не  говорю, что играть сложно, всё просто. Я про пение, такое не перепеть....А насчёт скорости пения - это Something in your mouth)

SvetlanaFan написал(а):

там шестизвучное арпеджио,да? или что-то другое??

Вот с этим я не заморачивался бы, ибо  сами они играют не так как в студийной версии.  Там не совсем 6-струнное арпеджио, но и оно пойдёт, я на слух играю, не знаю)...

+1

148

Михаил написал(а):

e|-0------------------|
B|-0------------------|
G|-3------------------|
D|-4------------------|
A|-4------------------|
E|-2------------------|
Verse x 3
C# E B B
e|-0----------------|-0----------------|-0---------------|-0-----------------|
B|-0----------------|-0----------------|-0---------------|-0-----------------|
G|-6----------------|-9----------------|-8---------------|-8-----------------|
D|-6----------------|-9----------------|-9---------------|-9-----------------|
A|-4----------------|-7----------------|-9---------------|-9-----------------|
E|-0----------------|-0----------------|-7---------------|-7-----------------|
First Chorus
A E B B
e|-0----------------|-0----------------|-0---------------|-0-----------------|
B|-0----------------|-0----------------|-0---------------|-0-----------------|
G|-6----------------|-9----------------|-8---------------|-8-----------------|
D|-7----------------|-9----------------|-9---------------|-9-----------------|
A|-7----------------|-7----------------|-9---------------|-9-----------------|
E|-5----------------|-0----------------|-7---------------|-7-----------------|
A E B B
e|-0----------------|-0----------------|-0---------------|-0-----------------|
B|-0----------------|-0----------------|-0---------------|-0-----------------|
G|-6----------------|-9----------------|-8---------------|-3-----------------|
D|-7----------------|-9----------------|-9---------------|-4-----------------|
A|-7----------------|-7----------------|-9---------------|-4-----------------|
E|-5----------------|-0----------------|-7---------------|-2-----------------|

After Chorus

Martiness
как играются такие таблицы? что за цифры и ------? я ваще всегде просто играла слова над которыми аккорды написаны!!!! плиз, объясни!! :'(

0

149

цифры - номер лада, на котором тебе надо зажать соответственную струну. Горизонтальные полоски - струны гитары. Это типа ты на гитарный гриф смотришь сверху... вот так http://images.yandex.ru/yandsearch?ed=1&rpt=simage&text=гриф гитары&img_url=ak-gitara.ru/images/noti_grif.jpg&p=13

0

150

и еще один вопросик: эти песни чтото на самую распространенную шестерку не ложаться! каким боем играть?

0

151

подскажите что значит "3h4" в аккордах к песне Far away

0

152

я полагаю это в табулатуре обозначение, и если так - то это кривые табы для этой песни

0

153

а выложите хорошие табы

0

154

Никелями увлекся недавно... Подскажите какие песни проще сыграть (желательно табы, аккорды, видеоуроки) а то большинство ссылок устарело. Пробовал найти сам, но находил либо бред, либо кучу вариантов и не знаю какой верный. На гитаре стал играть тоже недавно.

0

155

Подскажите правильный бой в Photographe пожалуйста

0

156

http://www.youtube.com/watch?v=qW3xBw3q … re=related

0

157

Martiness написал(а):

И вообще у Никелей, кроме Rockstar, нет песен с обычными аккордами...

У меня сын уже играет его новую,вроде бы там всё предельно просто

+1

158

Вот очень хорошая обучалка по WWST. Но люди помогайте, скажите что за бой? (я не так уж давно играю и с этим у меня трудности)

0

159

Да уж, 11 минут мусолить три аккорда Am F и G - это нечто )))

Прости, Бен, помочь с боем не могу - я его видимо как-то природно слышу и играю, а объяснить не могу

P.S. Sorry, I don`t know the bridge   :D

P.P.S. Вот получше обучалка имхо:

0

160

тоже не плохая видео 
а бой если без медиатора играешь можно просто: DDUUDU обычная щестёрка, но быстрая

0