Канадское достояние (форум Nickelback)

Информация о пользователе

Привет, Гость! Войдите или зарегистрируйтесь.



Аккорды Nickelback

Сообщений 101 страница 120 из 165

101

Не знаю, я просто медиатор под углом к струнам поворачиваю, типа лезвием медиатора.

0

102

В Savin me, я тож не до конца пойму как они эту фишку проворачивают... :|

0

103

Ярик написал(а):

Не знаю, я просто медиатор под углом к струнам поворачиваю, типа лезвием медиатора.

мне об этом говорили и как тока я его не поворачивал...может надо повернуть и этим самым "лезвием" ещё и одновременно  стукнуть по струне? или резануть её надо как ножом?

Отредактировано Martiness (28-01-2009 20:10:36)

0

104

резануть конечно! как при чистке рыбы ножом, только под углом

0

105

Ну да, что то похожее, но всё равно не так) Раян лучше рыбу чистит

0

106

Дак у Раяна стаж 20 лет =)

0

107

Подскажите, какие аккорды всё-таки правильно играть в How you Remind Me. Видел несколько версий, но как правильно?

0

108

Куплет

C    -         5        -        3
G    5         5        3       3
C    7         7        5       5
F     7         7        5       5
A    5         5        3        3
D можно играть её, а лучше не надо

Припев

-     3       -     5
5     3      3     5
7     3      5     5
7     5      5     7
5     6      3     8

Если играть с дисторшном то лучше в припеве (второй и  четвёртый аккорд) только  333 и 555 соответственно. Удачи! хотя легче не бывает)

0

109

Михаил написал(а):

Подскажите, какие аккорды всё-таки правильно играть в How you Remind Me. Видел несколько версий, но как правильно?

Не знаю как правильно,но я квинтами играю.

0

110

ну я играю так как Чад))

Отредактировано Martiness (29-01-2009 16:06:01)

0

111

у меня два вопроса:

1) используете ли вы вот такой перебор в Far Away? - http://www.youtube.com/watch?v=4DOUBLKRNXc
    на сайтах его нигде я не находил, только в этом видео
    чаще всего встречается этот - http://www.ultimate-guitar.com/tabs/n/n … r5_tab.htm
    но по-моему первый более схож с оригиналом  8-)

2) на концерте Live At Sturgis (2006) перед песней Someday незнакомый мне гитарист (видимо просто для концерта пригласили) играет офигительную мелодию, но я так и не смог найти ни этого гитариста, ни табов на эту мелодию. Никто не поможет? =)

0

112

2) - гитарист этот - гитарный техник Чада Крюгера - Тимми Доусон. Мелодия - просто перебор на первые аккорды Самдэй.
1) - оба перебора не соответствуют оригинальным Никелевским.
Гитара должна быть настроена на 1 лад ниже нормы, плюс басовая струна опущена ещё на 2 лада ниже.
Но мелодию тот чувак передал правильно, просто настроил гитару свою как-то странно.
Вот табулатура:

Свернутый текст

S S S S S S S S S S S S S S S S S S S S S S S S S S S S S S S S
|--------------------------------------------------------------------|
|--------0---------------0---------------0---------------3-----------|
|----5-----5---5-----5-----5---5-----5-----5---5-----5-----5---5-----|
|--5---5-----5-----5---5-----5-----5---5-----5-----5---5-----5-------|x3
|3-------------------------------0-----------------------------------|
|----------------5-------------------------------3-------------------|

S S S S S S S S S S S S S S S S S S S S S S S S H

|--------0---------------0-----------------------3~------------------|
|----3-----3---3-----3-----3---3---------3-------3~------------------|
|--2---2-----2-----2---2-----2-----5-5-----5---5-5~------------------|
|0---------------0---------------3-----3-----3---3~------------------|
|--------------------------------------------------------------------|
|--------------------------------------------------------------------|

Listen carefully for this next part

S  S  S  S  S  S  S  S  S  S  S  S  S  S  S  S  S  S  S

|12-------12-------12----10-------10-------10-------10------------------|
|---13-------13-------13----13-------13-------13-------13---------------|
|------12-------12-------------12-------12-------12---------------------|
|-----------------------------------------------------------------------|
|-----------------------------------------------------------------------|
|-----------------------------------------------------------------------|
|                                                                       |
|S  S  S  S   S  S  S  S  S  S  S  S  S  S  S  S                        |x4
|                                                                       |
|10-------10--------10----10-------10-------10--------------------------|
|---13--------13-------13----13-------13-------13-----------------------|
|------12--------12-------------12-------12-----------------------------|
|-----------------------------------------------------------------------|
|-----------------------------------------------------------------------|
|-----------------------------------------------------------------------|

S S S S S S S S S S S S S S S S S S S S S S S S S S S S S S S S
|--------------------------------------------------------------------|
|--------0---------------0---------------0---------------3-----------|
|----5-----5---5-----5-----5---5-----5-----5---5-----5-----5---5-----|
|--5---5-----5-----5---5-----5-----5---5-----5-----5---5-----5-------|x4
|3-------------------------------0-----------------------------------|
|----------------5-------------------------------3-------------------|

S S S S S S S S S S S S S S S S S S S S S S S S H

|--------0---------------0-----------------------3~------------------|
|----3-----3---3-----3-----3---3---------3-------3~------------------|
|--2---2-----2-----2---2-----2-----5-5-----5---5-5~------------------|
|0---------------0---------------3-----3-----3---3~------------------|
|--------------------------------------------------------------------|
|--------------------------------------------------------------------|

S  S  S  S  S  S  S  S  S  S  S  S  S  S  S  S  S  S  S

|12-------12-------12----10-------10-------10-------10------------------|
|---13-------13-------13----13-------13-------13-------13---------------|
|------12-------12-------------12-------12-------12---------------------|
|-----------------------------------------------------------------------|
|-----------------------------------------------------------------------|
|-----------------------------------------------------------------------|
|                                                                       |
|S  S  S  S   S  S  S  S  S  S  S  S  S  S  S  S                        |x4
|                                                                       |
|10-------10--------10----10-------10-------10--------------------------|
|---13--------13-------13----13-------13-------13-----------------------|
|------12--------12-------------12-------12-----------------------------|
|-----------------------------------------------------------------------|
|-----------------------------------------------------------------------|
|-----------------------------------------------------------------------|

S S S S S S S S S S S S S S S S S S S S S S S S S S S S S S S S

|-----------------------------------------------------------------------|
|--------0---------------0---------------0---------------3--------------|
|----5-----5---5-----5-----5---5-----5-----5---5-----5-----5---5--------|
|--5---5-----5-----5---5-----5-----5---5-----5-----5---5-----5----------|x2
|3-------------------------------0--------------------------------------|
|----------------5-------------------------------3----------------------|

S S S S S S S S S S S S S S S S S S S S S S S S H

|--------0---------------0----------------------------------------------|
|----3-----3---3-----3-----3---3---------3------------------------------|
|--2---2-----2-----2---2-----2-------5-----5---5-5----------------------|
|----------------------------------3---3-----3-5-5----------------------|
|----------------------------------------------3-3----------------------|
|0---------------0---------------3--------------------------------------|

S S S S S S S S S S S S S S S S S S S S S S S S S S S S S S S S

|-----------------------------------------------------------------------|
|--------0---------------0---------------0---------------3--------------|
|----5-----5---5-----5-----5---5-----5-----5---5-----5-----5---5--------|
|--5---5-----5-----5---5-----5-----5---5-----5-----5---5-----5----------|
|3-------------------------------0--------------------------------------|
|----------------5-------------------------------3----------------------|

S S S S S S S S S S S S S S S S S S S S S S S W

|-----------------------------------------------------------------------|
|--------0---------------0---------------0------------------------------|
|----5-----5---5-----5-----5---5-----5-----5---5------------------------|
|--5---5-----5-----5---5-----5-----5---5-----5--------------------------|
|3-------------------------------0--------------------------------------|
|----------------5------------------------------------------------------|

S  S  S  S  S  S  S  S  S  S  S  S  S  S  S  S

|14-------14-------14----12-------12-------12---------------------------|
|---15-------15-------15----15-------15-------15------------------------|
|------14-------14-------------14-------14------------------------------|
|-----------------------------------------------------------------------|
|-----------------------------------------------------------------------|
|-----------------------------------------------------------------------|
|                                                                       |
|S  S  S  S  S  S  S  S  S  S  S  S  S  S  S  S                         |x7
|                                                                       |
|12-------12-------12----12-------12-------12---------------------------|
|---15-------15-------15----15-------15-------15------------------------|
|------14-------14-------------14-------14------------------------------|
|-----------------------------------------------------------------------|
|-----------------------------------------------------------------------|
|-----------------------------------------------------------------------|

     WH

|----2~----------|
|----3~----------|
|----2~----------|
|----0~----------|
|----x~----------|
|----x~----------|

It's 100% right.

PLZ RATE and have fun with it.

0

113

круто)
спасибо! =)
впринципе меня все эти версии устраивают, звучание нормальное даже на моей старёхонькой гитарке)
а по Someday не можешь схематично перебор написать?
просто последовательность струн хотя бы...

0

114

там кстати не тупо перебор, всё же какая-то задумочка есть) я вот лично так и не осилил, слушаю, слушаю, а не повторить .. только примерно, но звучит хуже гораздо...

0

115

ещё... я сравнительно новичок в игре на гитаре, самоучка)
так вот на слух правильный бой я не могу подбирать :(
Photograph разобрал благодаря крупному плану в Live At Sturgis.
а сейчас вот не могу разобраться с боем в припеве Far Away и вцелом с Someday.

Отредактировано 0leg (09-10-2009 00:02:52)

0

116

Martiness написал(а):

Someday
Играется только так: все струны спущены на 2 лада, точнее не все - 6 спущена на 4, т.е. на 2 относительно остальных (Ярик уже рассказывал где-то)

Гитара настроена на 2 лада ниже (ну это необязательно), а басовая струна опущена ещё на 2 лада.
куплет:

(1)  (2)  (3)   (4) - просто нумеровка аккордов

0    0     0      0
0    0     0      0
6    2     4      4
6    2     4      2
4    0     2      2
-     -     -      2

(3) можно играть с барэ без 1 струны

Nothing's wrong....
  -                  -
  -                  -
  -                  4  - ...as you know...
  4                 4
  4                 2
  4

ПРипев: (2), (4), (3),  -
                                 -
                                 3  - ...but not right now
                                 4
                                 4
                                 4
(2) - i know you    (4) - wondering when

-                                -
5                               2
6 - youre the only       4 - one who know that
6                               4
4                               2

И т. д.

0

117

хорошо, обязательно воспользуюсь этим)
просто мне важно знать иногда конкретный бой, опять же... напр. в Photograph начинается с удара по струнам вниз-вверх-вверх-вниз...

0

118

не знаю, это на слух получается всегда, сложно написать так.... если так не слышишь, то врубай акустические версии песни, их море...там отчётливо слышно всё

0

119

Вот чего нарыла в тему:
Alfred Music Publishing is pleased to announce the release of new and authentic guitar TAB songbook, Nickelback Guitar Anthology. This songbook extends Alfred’s best-selling music book collection covering Nickelback, a band who have become a staple of the modern rock scene.

Nickelback Guitar Anthology combines 15 of the group’s greatest hits spanning their successful career in one comprehensive guitar TAB songbook. Featuring number one popular hits such as "How You Remind Me" as well as mainstream rock chart toppers including "Far Away," Nickelback Guitar Anthology delivers a variety of the group’s hottest smash hits. Nickelback Guitar Anthology is the perfect choice for guitarists who want to perform well known rock songs for friends or in concert, as well as music makers who simply want to increase their rock guitar repertoire.

Nickelback Guitar Anthology is now available for $21.95. Pick up your copy at a local music retail store, or buy them today at alfred.com.

Titles include:

# Far Away
# Feelin’ Way Too Good
# Figured You Out
# Gotta Be Somebody
# How You Remind Me
# I'd Come for You
# If Everyone Cared
# If Today Was Your Last Day
# Never Gonna Be Alone
# Photograph
# Rockstar
# Savin’ Me
# Should’ve Listened
# Someday
# Too Bad

Other Nickelback guitar TAB songbooks available now through Alfred:
# Silver Side Up
# The Long Road
# Dark Horse
# All the Right Reasons

Other Nickelback piano/vocal songbooks with guitar chords available now:
# Sheet Music Anthology
# All the Right Reasons

Ultimate-Guitar.Com © 2009

http://www.ultimate-guitar.com/news/pre … ology.html

0

120

У них NB Guitar Tab Anthology есть в официальном магазине, я ее недавно купила. Очень хорошая вещь, давно мечтала иметь такую! :)
/могу отсканировать че-нить оттуда, если кому нужно/

0