Канадское достояние (форум Nickelback)

Информация о пользователе

Привет, Гость! Войдите или зарегистрируйтесь.



Аккорды Nickelback

Сообщений 81 страница 100 из 165

81

Never Gonna Be Alone

Asus2   x02200

E                   H7
Time, Is going by
                            C#m
So much faster than I
                                     Asus2
And I'm starting to regret not spending all of it with you
        E                   H7                                   C#m
Now I'm wondering why, I've kept this bottled inside
                                         Asus2
so I'm starting to regret not telling all of it to you
                   F#m                   Asus2
so if I haven't yet, I've gotta let you know

                                   E
You're never gonna be alone
                        Asus2
From this moment on
                                      E
If you ever feel like letting go
                    Asus2
I won't let you fall
                                  E
You're never gonna be alone 
                                Asus2
I'll hold you till the hurt is gone

And now as long as I can
I'm holding on with both hands
Cause forever I believe
That there's nothing I could need but you
So if I haven't yet
I’ve gotta let you know

You're never gonna be alone
From this moment on
If you ever feel like letting go
I won't let you fall
When all hope is gone
I know that you can carry on
We're gonna see the world alone
I'll hold you till the hurt is gone
                         
                           C#m
You’ve gotta live every single day
                 E
Like its the only one
What if tomorrow never comes
             C#m         
Don't let it slip away, could be our only one
     E
You know it's only just begun
      C#m
Every single day, may be our only one
What if Tomorrow Never Comes
E
Tomorrow Never Comes

Time, Is going by
So much faster than I
I'm starting to regret not telling all of this to you

You're never gonna be alone
From this moment on
If you ever feel like letting go
I won't let you fall
When all hope is gone
Know that you can carry on
We're gonna take the world on
I'll hold you tilll the hurt is gone

I'm gonna be there all of the way
I won't be missing one more day
I'm gonna be there all of the way
I won't be missing one more day

0

82

I'd Come For You

A   x02230
                         Hm
Just one more moment
                         G
That's all that's needed
                       A
Like wounded soldiers
                    D
In need of healing
                  Hm
Time to be honest
                         G
This time I'm pleading
                          A
Please don't dwell on it
                         D
Cause I didn't mean it
Hm     G 
I can't believe I said
       A
I'd lay our love on the ground
Hm                 G
But it doesn't matter ‘cause
   A
I made it up Forgive me now
Hm           G                       A
and Every day I spend away
my souls inside out
Hm        G   
Gotta be some way
A
that I can make it up
to you now, somehow
By now you know that
Hm
I'd come for you
G
No one but you
A
Yes I'd come for you
D
But only if you told me to
Hm
I'd fight for you
G
I'd lie, It's true
A
Give my life for you
D
You know I’ll always come for you

I was blindfolded
But now I'm seeing
My mind was closing
Now I'm believing
I finally know just what it means
to let someone in
to see the side of me
that no one does or ever will
So if you're ever lost and
find yourself all alone
I'd search forever
just to bring you home
Here and now,
this I vow
By now you know that
No matter what gets in my way
As long as there's still life in me
No matter what remember
You know I’ll always come for you
I'd crawl across this world for you
Do anything you want me to
No matter what, remember
You know I’ll always come for you
You know I’ll always come for you

Отредактировано Михаил (12-12-2008 16:45:25)

0

83

Спасибо! Позволю себе совет - в Never Gonna Be Alone аккорды лучше зажимать в стиле Photograph,
оставляя открытыми первые 2 струны всегда! То есть:
Е:       079900
H:      799800 = x24400
Cm#  x46600 = x46600
A       002200
F#m   x44200

0

84

О ща попробую спс

0

85

Подборка S.E.X. нужна?

0

86

Ярик написал(а):

в Never Gonna Be Alone аккорды лучше зажимать в стиле Photograph

Ну не только лучше, а так и надо. на самом деле хоть суть одна, всё таки по другому звучит...

0

87

Выкладывай

F.A.Q. написал(а):

Подборка S.E.X. нужна?

0

88

Вступление : С5 D5 D#5 E5 F#5  x4
                    Cm G# F x4
Куплет : Сm G# F
Припев : Cm G# Gm Fm B

0

89

Господа,очень прошу,выложите аккорды If today was your last day!буду вам очень признателен!

0

90

If Today Was Your Last Day

Intro Chord

F#
e|-0------------------|
B|-0------------------|
G|-3------------------|
D|-4------------------|
A|-4------------------|
E|-2------------------|

Verse x 3

C# E B B

e|-0----------------|-0----------------|-0---------------|-0-----------------|
B|-0----------------|-0----------------|-0---------------|-0-----------------|
G|-6----------------|-9----------------|-8---------------|-8-----------------|
D|-6----------------|-9----------------|-9---------------|-9-----------------|
A|-4----------------|-7----------------|-9---------------|-9-----------------|
E|-0----------------|-0----------------|-7---------------|-7-----------------|

First Chorus

A E B B

e|-0----------------|-0----------------|-0---------------|-0-----------------|
B|-0----------------|-0----------------|-0---------------|-0-----------------|
G|-6----------------|-9----------------|-8---------------|-8-----------------|
D|-7----------------|-9----------------|-9---------------|-9-----------------|
A|-7----------------|-7----------------|-9---------------|-9-----------------|
E|-5----------------|-0----------------|-7---------------|-7-----------------|

A E B B
e|-0----------------|-0----------------|-0---------------|-0-----------------|
B|-0----------------|-0----------------|-0---------------|-0-----------------|
G|-6----------------|-9----------------|-8---------------|-3-----------------|
D|-7----------------|-9----------------|-9---------------|-4-----------------|
A|-7----------------|-7----------------|-9---------------|-4-----------------|
E|-5----------------|-0----------------|-7---------------|-2-----------------|

After Chorus

C# E B B

e|-0----------------|-0----------------|-0---------------|-0-----------------|
B|-0----------------|-0----------------|-0---------------|-0-----------------|
G|-6----------------|-9----------------|-8---------------|-6-----------------|
D|-6----------------|-9----------------|-9---------------|-9-----------------|
A|-4----------------|-7----------------|-9---------------|-9-----------------|
E|-0----------------|-0----------------|-7---------------|-7-----------------|

e|----------7--------------------7---------------------------4---------------|
B|-----5---------5---5/7------5------5---5/7---------------------5----7------|
G|------------------------------------------------------------------------6--|
D|---------------------------------------------------------------------------|
A|---------------------------------------------------------------------------|
E|---------------------------------------------------------------------------|

Verse x 4

Second Chorus

A E B B

e|-0----------------|-0----------------|-0---------------|-0-----------------|
B|-0----------------|-0----------------|-0---------------|-0-----------------|
G|-6----------------|-9----------------|-8---------------|-8-----------------|
D|-7----------------|-9----------------|-9---------------|-9-----------------|
A|-7----------------|-7----------------|-9---------------|-9-----------------|
E|-5----------------|-0----------------|-7---------------|-7-----------------| x3

A E B B

e|-0----------------|-0----------------|-0---------------|-0-----------------|
B|-0----------------|-0----------------|-0---------------|-0-----------------|
G|-6----------------|-9----------------|-8---------------|-3-----------------|
D|-7----------------|-9----------------|-9---------------|-4-----------------|
A|-7----------------|-7----------------|-9---------------|-4-----------------|
E|-5----------------|-0----------------|-7---------------|-2-----------------|

Bridge x 4
E B F# F#

e|-0----------------|-0----------------|-0---------------|-0-----------------|
B|-0----------------|-0----------------|-0---------------|-0-----------------|
G|-1----------------|-4----------------|-3---------------|-3-----------------|
D|-2----------------|-4----------------|-4---------------|-4-----------------|
A|-2----------------|-2----------------|-4---------------|-4-----------------|
E|-0----------------|-0----------------|-2---------------|-2-----------------|

Repeat Chorus

A E B B

e|-0----------------|-0----------------|-0---------------|-0-----------------|
B|-0----------------|-0----------------|-0---------------|-0-----------------|
G|-6----------------|-9----------------|-8---------------|-8-----------------|
D|-7----------------|-9----------------|-9---------------|-9-----------------|
A|-7----------------|-7----------------|-9---------------|-9-----------------|
E|-5----------------|-0----------------|-7---------------|-7-----------------|

Outro Chord

F#

e|-0------------------|
B|-0------------------|
G|-3------------------|
D|-4------------------|
A|-4------------------|
E|-2------------------|

| / slide up
| \ slide down
| h hammer-on
| p pull-off
| ~ vibrato
| + harmonic
| x Mute note

0

91

Если можно, дайте, пожалуйста, табу на Savin' Me и Hero.
И если можно - без барре, но с переборами (для Savin' Me)

Отредактировано Kris (07-01-2009 23:41:55)

0

92

Дайте пожалуйста аккорды к песне Feelin' Way Too Damn Good.

0

93

http://www.ultimate-guitar.com/tabs/n/n … r2_tab.htm

;) вполне доступная информация

0

94

Подскажите, как правильно играется рифф в песне because of you, какой из этих трёх правильный:

|-----------------------------|-------------------------------------|
|-----------------------------|-------------------------------------|
|-----------------------------|-------------------------------------|
|-----------------------------|-------------------------------------|
|-0-0-0-3--0-0-0-0-3--0-0-|-0-0-0-3-----0-5-0----------------|
|-0-0-0-3--0-0-0-0-3--0-0-|-0-0-0-3-0-3-------6-0-3-0-3-5--|

D||-------------------------------------|----------------------------------------|
A||-------------------------------------|----------------------------------------|
F||--------------------------------------|----------------------------------------|
C||-------------------------------------|----------------------------------------|
G||--0-0---3-----0---0-0---3-----0---|--0-0---3-----------5-0---------------|
C||--0-0---3-----0---0-0---3-----0---|--0-0---3---0-3-0------5-0-4-0-3-5-|

D||---------------------------------|-------------------------------------------|
A||---------------------------------|-------------------------------------------|
F||---------------------------------|--------------------------------------------|
C||---------------------------------|-------------------------------------------|
G||--0-0-0-3----0---0-0-0-3-----|--0-0-0-0-0-3---------5-0----------------|
C||--0-0-0-3----0---0-0-0-3-----|--0-0-0-0-0-3---0-3-0-----5-0-3-0-3-5-|

0

95

Вроде все они используются, только в разных участках песни

0

96

я думаю какойто всё таки один! на концертах я не могу заметить, потому что не снимают, когда они играют эту часть!
меня интересует этот быстрый перебор, какой же всё таки правильнее!

---------5-0---------------|
--0-3-0-----5-0-3-0-3-5-|

---------5-0---------------|
--0-3-0-----5-0-4-0-3-5-|

---------5-0---------------|
--0-3-0-----6-0-3-0-3-5-|

0

97

Если честно, никогда не слышал басовой струны на 4ом ладу. Я её на третий заменяю всегда.

0

98

Pushkin написал(а):

меня интересует этот быстрый перебор

А, ну тогда точно не второй, ибо нет там 4 лада, и не третий  - 6 лада там тоже нет. Последние 3035 это точно, а вот что перед ними? скорее всего 5 0 (98%)

0

99

Мы с нашей группой готовим к 8 марта поздравление в виде Far away ,спасибо аккордам с форума !

0

100

слушайте, давайте отправимся назад и вспомним savin Me. так и не пойму как этот скребок получается на 6 струне(во вступлении очень хорошо слышно) такой звук, будто металлом по струне или чё то в этом роде. очень классно

0