Канадское достояние (форум Nickelback)

Информация о пользователе

Привет, Гость! Войдите или зарегистрируйтесь.



Аккорды Nickelback

Сообщений 21 страница 40 из 165

21

Много хорошего есть на 911tabs.com

0

22

В последнне время подсел на savin' me, каждый день играю. Очень нравится перебор во время куплета(хоть он и простенький) и классный бой в припеве. Вариантов соло видел очень много, но я играю вот как здесь http://www.guitariff.net/artistes/nickelback/
Кто кстати вообще как это соло играет?

0

23

Я играю как слышу - из оригинала. Концертный вариант не очень нравится.

0

24

Вот как я играю, если интересно. Это довольно хороший вариант для акустики :yes:

||---------------------------|---------------------------|
||-----0------------0-----0--|-----0------0--------------|
||--------2------------2-----|--------2---------0--2-----|
||---------------------------|------------------------2--|
||--3------------------------|--0------------------------|
||------------0-3-3----------|--------------0-0----------|

   
---------------------------|---------------------------|
-----0------------0-----0--|-----0------0-----0--------|
--------2------------2-----|--------2------------2-----|
---------------------------|------------------------2--|
--3------------------------|--0-----------0-0----------|
------------0-3-3----------|---------------------------|

|--7--7--7--7-7-7--7--7--7-7-|
|--8--8--8--8-8-8--8--8--8-8-|
|--9--9--9--9-9-9--9--9--9-9-|
|--9--9--9--9-9-9--9--9--9-9-|
|--7--7--7--7-7-7--7--7--7-7-|
|----------------------------|

--5--5--5--5-5-5--5--5--5-5-|--7--7--7--7-7-7--7--7--7-7-|
--7--7--7--7-7-5--5--5--5-5-|--8--8--8--8-8-8--8--8--8-8-|
--7--7--7--7-7-6--6--6--6-6-|--9--9--9--9-9-9--9--9--9-9-|
--7--7--7--7-7-7--7--7--7-7-|--9--9--9--9-9-9--9--9--9-9-|
--5--5--5--5-5-7--7--7--7-7-|--7--7--7--7-7-7--7--7--7-7-|
--5--5--5--5-5-5--5--5--5-5-|----------------------------|

--5--5--5--5-5-5--5--5--5-5-|--0--0--0--0-0-3--3--3--3-3-|
--7--7--7--7-7-5--5--5--5-5-|--1--1--1--1-1-0--0--0--0-0-|
--7--7--7--7-7-6--6--6--6-6-|--0--0--0--0-0-0--0--0--0-0-|
--7--7--7--7-7-7--7--7--7-7-|--2--2--2--2-2-0--0--0--0-0-|
--5--5--5--5-5-7--7--7--7-7-|--3--3--3--3-3-2--2--2--2-2-|
--5--5--5--5-5-5--5--5--5-5-|---------------   3--3--3--3-3-|

--0--0--0--0-0-0----3----|--0--0--0--0-0-3--3--3--0--|--L----------------|
--1--1--1--1-1-0----0----|--1--1--1--1-1-0--0--0--1--|--L----------------|
--2--2--2--2-2-0----0----|--0--0--0--0-0-0--0--0--2--|--L----------------|
--2--2--2--2-2-2----0----|--2--2--2--2-2-0--0--0--2--|--L----------------|
--0--0--0--0-0-2----2----|--3--3--3--3-3-2--2--2--0--|--L----------------|
---------------   0----3----|---------------  3--3--3-----|

|--------------------------------|
|--------------------------------|
|--5-4-2-0-2--5-4-2-0-2--5-4-2-0-|
|--------------------------------|
|--------------------------------|
|--------------------------------|

-----------------------------|-----------------------------|
-----------------------------|-----------------------------|
--2---------0--/4--2--/2--0--|--5-4-2-0-2--------0--/4--2--|
-----2-2-2-------------------|------------     -2--2------------|
-----------------------------|-----------------------------|
-----------------------------|-----------------------------|

 
----------------------------------|--     8-7-5---5--8-7-5---5--8-7-5---|
----------------------------------|-------        -8----------8----------8-|
---2-2-2-4-4-4-4-5-5-5-5-7-7-7-7-|--------------------------------|
----------------------------------|--------------------------------|
----------------------------------|--------------------------------|
----------------------------------|--------------------------------|

 
--5------------/7--5--/5-----|--5-7-7-7-7-8-8-8-10--8--10--/17--|
-----5-5-5--8-------------8-|----------------------------------|
-----------------------------|----------------------------------|
-----------------------------|----------------------------------|
-----------------------------|----------------------------------|
-----------------------------|----------------------------------|

Отредактировано almon (04-05-2007 18:58:29)

0

25

А вот так играют Никели:

------------------------------------------------------------------------------------- --------------------------------------
----------------------------------------------------------------------------------------------------------------------------
-------0------------------0------------0-----------------0--------------------------0-------------------0----------------
----7------------------7----7-------7----7------------3-----0-----блабла ------7---7-------------7----0--------------
----------------------------------------------------------------------------------------------------------------------------
-8----------033------------------5---------------00---------------------------5---------------55------------------------

Настройка вся спущена на 2 лада, и басовая струна спущена ещё на 2.

0

26

Да, Никели конечно по-другому играют. А можешь, Ярик, соляк к savin' me еще выложить и к someday если не в лом?

0

27

http://www.e-chords.com/tab.asp?idMusic … amp;tipo=T

http://www.e-chords.com/tab.asp?idMusic … amp;tipo=T

0

28

Вот очень классна подборка If everyone cared: http://ifolder.ru/2740908

0

29

А у когото  эсть Sharp Dresed Men :clapping:  (ну очень песенка понравилась  :rolleyes: хотелось бы сыграть  :D )

0

30

Слушайте. Наверное никого не удивлю, но не в том дело.
Прога Guitar Pro 5. Качаем тут.

Табы для проги берем тут. Много групп в том числе и Никели.
Радует тем, что на сайте практически нет неправильных таб, т.к. делая их в этой проге ты можешь их послушать.
И также радует тем, что все партии из таб для GP5 ты можешь посмотреть "на грифе". Что намного упрощает восприятие.

http://www.guitar-pro.com/en/imgv5/produit/scr-principal.gif

З.Ы. Проога shareware, но ключ будет найти не трудно. Хотя сам этим еще не занимался.

Отредактировано QuarterBack (27-07-2007 13:06:02)

0

31

Эта програмка у меня записана где-то год ,там на грифе всё показано как сказал QuarterBack  :yes: Советую скачать для новичков в гитаре ,ну и для тех хто уже не первый год на гитаре занимаються (мне эта програмка помогла что сичас я уже сама пишу музыку :D )

Отредактировано kristi (27-07-2007 16:04:20)

0

32

По поводу "Savin me" ничего сказать не могу, но за-то есть аккорды других песен (из стареньких альбомов). Кто знает: есть ли что-то похожее на DVD "Live at home" и где можно взять?

0

33

Народ, а хто сможет на синтезаторе или рояле сыграть их песни?

0

34

А почему нет? Они что, особенные?)) На форуме уже как то выкладывал, например, Savin me и Far away. И свои и чужие...

0

35

В гитаре, я в общем-то новичок, из никелей могу сыграть только "Rockstar," не посоветуете чего-нибудь.

0

36

Смотри пост 24. Там алмон выложил табу Savin' Me. Тоже не сложно...

0

37

Santino написал(а):

В гитаре, я в общем-то новичок, из никелей могу сыграть только "Rockstar," не посоветуете чего-нибудь.

Я бы посоветовал HYRM, Someday, Leader Of Men. Они действительно простые. В HYRM бас опусти на 2 лада - и вообще 4 аккорда на 2ух баре ))))

0

38

QuarterBack,Ярик У меня акустическая, и как играть "Savin' me" там же аккордов нет :unsure: ?

0

39

Играй на акустике. Если правильно играть, то будет лучше , во многих случаях, чем на электре. Во всяком случае красивее....
И почему у Savin me нет аккордов, а что ж там может ещё быть... Кстати звучит тоже классно только под акустику ( проверено даже самими никелями)
PS: лучше Savin me оставить на потом, там аккорды по-сложнее(конечно относительно), да и в переборе нада проявить ловкость и гибкость пальцеви кисти (опять же я беру настройку и табу, по которой играет Раян). Хотя , если уже достаточно играешь, то можешь пробовать... Да и лучше, чтоб акустика была тысяч за 12 или больше. Вот тогда ваще классно, уху очень приятно

Отредактировано Martiness (13-11-2007 15:00:47)

0

40

Martiness написал(а):

И почему у Savin me нет аккордов, а что ж там может ещё быть... Кстати звучит тоже классно только под акустику ( проверено даже самими никелями)

Я имел ввиду, что написал almon.

0